Make your own free website on Tripod.com
#----------------------------------PLEASE NOTE---------------------------------#
#This file is the author's own work and represents their interpretation of the #
#song. You may only use this file for private study, scholarship, or research. #
#------------------------------------------------------------------------------#

Earth

by: Dweezil Zappa




Intro transcribed by Alan Estrada and Roland Rupp, still under transcription

on 3/4 (standard tuning)
e---------------------------------------------------------
b---------------------------------------------------------
g--6--7--9--7--6------------------------------------------
D-----------------9--7--------------5--7--5-----5--9------
A-----------------------5--5--7--9-----------9--------7--7
E---------------------------------------------------------

e----------------------------------------------------------
b----------------------------------------------------------
g----------------------------------------------------------
D--------------------------------------7--5--4------4------
A--7--9--10--9--7-------------------4------------7-----5--5
E------------------10--9--5--5---5-------------------------

e----------
b----------
g----------
D----------
A--7-------
E------5--5

tabbed by : Rutger Tuller r.tuller@student.utwente.nl

This is the main lick of this great song, altough I tried to time it as good as possible, listen to the record for the exact timing. Don't forget the DROP-D tuning !!!
    
    |---| R8 |=| |---|  R8  |===|         |---|   |=|  |-=|=|=|=|====|===|     
E-|-------------------------------------|-----------------------------------|
B-|-------------------------------------|-----------------------------------|
G-|--------------2---2------4-/-6-------|-7---6-----------9-7---------------|
D-|-0---0--------2---2------------------|---------------------9-787---------|
A-|-0---0--------4---4------2-/-4-------|-5---4--------2-------------10-7---|
D-|-0---0----2-5------------------------|---------5-6--2--------------------|